Make your own free website on Tripod.com

Blues For Vickie

My Version Of "Blues For Vickie"


G Tuning


-----0---4/5-----5--5\4--4--4---------------------------------------0--0------
-0-----0-------0---------------5----------5--5/7------7--7\5--5--5-------0----
---5---------0------0----0--0-----5-----5-----------7---------------0------5--
-------------------------------5------5------5/7--7------7\5--5--5------------
------------------------------------5-----------------------------------------
------------------------------------------------------------------------------
        
                                                                      

-0-------0-------0------------0-------0--------------0-2-4--4/5-----5--5\4----
---0---------------5-----------------------------0-1--------------0-----------
-----------5---5-----5----2/4---4\2-2---2p---0-2------------0---0------0------
-------5-----5---------5-------------------4----------------------------------
-----5------------------------------------------------------------------------
------------------------------------------------------------------------------
        
                                                                      

-4--4----------------------------------0--0-----0-------0-------0-------------
---------------5--5/7------7--7\5--5-5------0-----0---------------5-----------
-0--0--5-----5-----------7-------------0------5-----------5---5-----5----2/4--
-----------5------5/7--7------7\5--5-5----------------5-----5---------5-------
---------5------------------------------------------5-------------------------
------------------------------------------------------------------------------
                                                                              


-0--------0--------------0----------------------------------5--7--5--0---0----
---------------------0-1---0--4/5---------5--5/7------7--7-----------------0--
---4\2-2----2p---0-2--------------5-----5-----------7-------5--7--0--0--------
---------------4----------------------5------5/7--7------7--------------------
------------------------------------5-----------------------------------------

                                                                              

---0--2---------------------------0-------------0-------0--------------0-2-4--
------------------------------------5------------------------------0-1--------
-5------2/4--4--2--4--4/5---5---5-----5-----2/4---4\2-2---2p---0-2------------
--------------------------5---5---------5--------------------4----------------
------------------------------------------5-----------------------------------
------------------------------------------------------------------------------
     
                                                                         

-4/5-----5--5\4--4---------------7/9\7-----------------0--0-----0-------0-----
-------0------------5-------------------7\5------5--5-------0-----0-----------
-0---0------0----0----5-----5--7---------------5-------0------5-----------5---
--------------------5-----5-------------7\5--5------5-----------------5-------
------------------------5-------------------------------------------5---------
------------------------------------------------------------------------------
         
                                                                     

---4--5/7--7------7-7--5-----5v------------7/9--9v----------------------------
-5--------------7---------7---------------------------------------------------
-----------7--7-----7--5------------0-----------------------------------------
--------------------------7-------0---0---------------------------------------
------------------------------------------------------------------------------
--------------------------------0-------0-------------------------------------


TABLATURE SYMBOLS h Hammer On p Pull Off b Bend String r Release Bend / Slide Up \ Slide Down v Vibrato * Trill (eg 8*10) t Right Hand Tap (eg. t10) x Muted Note (or Retake) ^ Harmonic
#----------------------------------PLEASE NOTE--------------------------------# #This file is the author's own work and represents their interpretation of the# #song. You may only use this file for private study, scholarship, or research.# #-----------------------------------------------------------------------------#
Author/Artist: Jerry Douglas Title: Blues For Vickie Album: Everything's Gonna Work Out Fine Transcribed by: Troy Allen, Jr. Email: Troy@DobroPlayers.com Web Page: The Dobro Player's Tune Of The Week

Back to the Tablature Section