Make your own free website on Tripod.com

The Little Drummer Boy

"The Little Drummer Boy"


The Little Drummer Boy


  G Tuning


                                                                   1st Measure
-|----------------------------------------------------------------------------
-|----------------------------------------------------------------------------
-|--0---2/4--4------4-----4--5-4-5---4------4-----4-----4-----4---4----0----0-
-|--0---0----0----0-----0-----------------0-----0-----0-----0----------0----0-
-|----------------------------------------------------------------------------
-|--0-0---------0-----0------------0----0-----0-----0-----0-----0----0----0---
                                                                              


------------------------------------------------------------------------------
----------------------------------------------------------------0-1/3-3-------
-2/4-4------4-----4--5-4-5---4------4-----4-----4-----4---4---2-0-0---0----0--
-0---0----0-----0-----------------0-----0-----0-----0---------0---------------
------------------------------------------------------------------------------
--------0-----0------------0----0-----0-----0-----0-----0----------------0----

                                                                              

--------0---------------0-----0-----0-----0---0-------------------------------
-3---5------0----------------------------------------0-1/3-3------3---5-6\5---
----------5---0--2----2-----2-----2-----2----------2-0-0---0----0-----------7-
--------------------0-----0-----0-----0-----0------0--------------------------
------------------------------------------------------------------------------
---0---------------------------------------------0------------0-----0---------

                                                                              

--------0-------------0---------------0-----0-----0---------------------------
------5-------------------0---------------------------------------------------
--5-------5--4---4------5---0--2----2-----2-----2---2------7v\2-------0-------
----5-----------------------------0-----0-----0------------7v\2-------0-------
------------------------------------------------------------------------------
---------------0---0-----------------------------------2/7---------0-----0----
                                                                              


-----------------------------------------------------------------0------0-----
------------------------------------------------------------------------------
--2/4--4-----4-----4--5-4-5---4------4-----4-----4----2p0-2------0----0-------
--0----0---0-----0-----------------0-----0-----0------0---0--2/5----5-----5---
------------------------------------------------------------------------------
---------0-----0------------0----0-----0-----0-----0--------------------------
                                                                              

Staffs notate the end of the first measure
-------0-----0-------------------------0-----0-----|---5-----7/9-9------9-----
---------------------------------------------------|--------------------------
-0---0---0-----------0---0-------0---0---0---------|---0--------------0-------
---5-------0-------0---5-----0-----5-------0-------|--------------------------
---------------1/3---------3-----------------------|--------------------------
-------------------------------0---------------0---|------0------0--0---------

                                                                              

-----9--10-9-10---9------9------9------9------9----9-----5-----5--7/9--9------
------------------------------------------------------------------------------
---0-------------------0------0------0------0------------0-----0--------------
------------------------------------------------------------------------------
------------------------------------------------------------------------------
-0--------------0----0------0------0------0------0-----0----0----------0------

                                                                              

------9------9---10-9-10---9------9------9------9------9----9---7--9--10--12--
------------------------------------------------------------------------------
----0------0--------------------0------0------0------0-------------0----------
--------------------------------------------------------------7-------0-------
------------------------------------------------------------------------------
--0------0---------------0----0------0------0------0------0---------------0---
                                                                              


------12----14-12-----------7-----7-----------------------7--9--10--12--------
------------------13-12---------7-----7b-------7------------------------------
----0-------------------12----7-----7----7---7---7---7-------0----------------
-------------------------------------------7-------7------7-----0-------------
------------------------------------------------------------------------------
--0------0---------------------------------------------7------------0---------
                                                                              


-----12-----14--15-14---------14-12---------12-10------7-----7----------------
----------------------15------------13--12--------12-------7-----7b-----------
---0---------------------17-------------12---------------7-----7----7---------
-------------------------17-------------12------------------------------------
-------------------------17---------------------------------------------------
-0------0---------------------------------------------------------------------
                                                                              


------------------------------------------------------------------------------
------7-----------------------------------------------------------------------
----7---7--------0---2/4-4------4-----4--5-4-5---4-----4-----4-----4----------
--7--------------0---0---0----0-----0----------------0-----0-----0------------
------------------------------------------------------------------------------
----------7\2--0---0--------0-----0------------0---0-----0-----0-----0--------
                                                                              


--------------0------0---------0-----0---------------------------0---------|--
---------------------------------------------------------------------------|--
--2p0--2------0----0-----0---0---0------------0---0--------0---0---0---0---|--
--0----0--2/5----5-----5---5-------0--------0---5-----0------5-------0-----|--
----------------------------------------1/3---------3----------------------|--
--------------------------------------------------------0----------------0-|--

                                                                              

------------------------------------------------------------------------------
------------------------------------------------------------------------------
---Repeat-first-measure-and-use-the-variation-listed-below-for-the-ending.----
------------------------------------------------------------------------------
------------------------------------------------------------------------------
------------------------------------------------------------------------------

                                                                              

-|-----0------0---------0-----0---------------------------0-----------|-------
-|--------------------------------------------------------------------|-------
-|-----0----0-----0---0---0------------0---0--------0---0-------------|-------
-|-2/5----5-----5---5-------0--------0---5-----0------5--------0------|-------
-|-------------------------------1/3---------3---------------3---3----|-------
-|-----------------------------------------------0-----------------0--|-------
                                                                              



TABLATURE SYMBOLS h Hammer On p Pull Off b Bend String r Release Bend / Slide Up \ Slide Down v Vibrato * Trill (eg 8*10) t Right Hand Tap (eg. t10) x Muted Note (or Retake) ^ Harmonic
#----------------------------------PLEASE NOTE--------------------------------#
#This file is the author's own work and represents their interpretation of the#
#song. You may only use this file for private study, scholarship, or research.#
#-----------------------------------------------------------------------------#
Original Author/Artist: Troy Allen, Jr. Version Author/Artist: Troy Allen, Jr. Title: The Little Drummer Boy Album: None Transcribed by: Troy Allen, Jr. Email: Troy@DobroPlayers.com Web Page: The Dobro Player's Tune Of The Week
Back to the Tablature Section