Make your own free website on Tripod.com

Birth Of The Blues

Jerry Douglas/Everything's Gonna Work Out Fine



  G Tuning


-|-------------------------0------------0-------------2-0---------------------
-|---0------------0------0---2---0--------2/3\2-----------1/2--2-2-2--0---0---
-|-----2---0--------2-0--------2---2------------4\2-0-------------------2-----
-|-------0---4----------------------------------------------------------------
-|----------------------------------------------------------------------------
-|----------------------------------------------------------------------------
      
                                                                        

---0-2-0-2/4-0----------------------------0----------0------------------------
-2-------------------0------------0---------2---0------2/3\2/3\2--------------
---------------4-2-----2-0h2p0------2-0-------2---2--------------2/4\2-0------
-------------------------------4----------------------------------------------
------------------------------------------------------------------------------
------------------------------------------------------------------------------
                                                                              


-2-0---------------------0-2-------0------------------------------------------
-----1/2--2-2-2--0---0-2-----2/3-3---3----------------------------------------
-------------------2------------------------7--9--10--11-------11-9-7---------
--------------------------------------------7--9--10--------11---------7/11---
------------------------------------------------------------------------------
------------------------------------------7--------------11-------------------
                                                                              


--------------------------------0-----4---4-----------------4-----------------
----------------------------------5-6-------2/4---------------2/4---2/4-------
-------11-9-7-4/6-6-6-6\3p0---0-----------------4---4-----4-------4-----------
----11--------------------------------------------6-----4---------------------
------------------------------------------------------------------------------
-11---------------------------------------------------------------------------
                                                                              


------------------------------------0-------0-------------2-0-----------------
----------------0-----------0-----0---2-0-----2/3-2-----------1/2-2-2-2-------
-4---4------------2-0h2p0-----2-0---------2---------4\2-0---------------------
---4-----9\3p0------------4---------------------------------------------------
------------------------------------------------------------------------------
------------------------------------------------------------------------------
                                                                              


---------0-2------------------------------------------------7--5\4---0--------
-0---0-2-----2/3---3\2-0----------------------------------7--------5---1/2----
---2---------------------2-0h2p0-0-2--------------------7---------------------
-------------------------------------2/4-0------------7-----------------------
---------------------------------------------3------7-------------------------
-------------------------------------------4----4/7---------------------------
         
                                                                     

-----2-2/4-0------2/3-2/3\2-0------2\1---0-2----------------------------------
---2--------------------------0-3------3-----1/2---0--------------------------
-2-----------4-2---------------------------------2---2-0---0------------------
---------------------------------------------------------4---4\2-0---0-2-0----
-------------------------------------------------------------------2----------
------------------------------------------------------------------------------
                                                                              


------------------------7-9-9/12-13/14\13-12-------------14-12---10\9--7------
----------------------7--------------------------------------------------8-7--
--------------------7------------------------12/14----14----------------------
-2/4-0------------7--------------------------------14------------10\9---------
--------------5/7-------------------------------------------------------------
-------4-2/7------------------------------------------------------------------
                
                                                              

---------------------------2------------2-2/4-0-------------------------------
---5/7-7\5---------------2---3-1/2----2---------0-3---------------------------
-7---------7----------2-------------2---------------------------7-----7--9----
-------------7/9\3--2-----------------------------------7---7---------7--9----
------------------------------------------------------------------------------
----------------------------------------------------3/7---7---7-----7----9----
                                                                              


-------------------------------------------2-4-5-4/5\4---4-4--2-4-------------
-------------------------------------------------------5----------2/4---2-----
-10--11-------11--9-7-7/9-7-6-4/6-6-4/6-6-----------------------------4---4---
-10--------11------------------------------2-4-5-4/5\4------------------------
------------------------------------------------------------------------------
-10-----11--------------------------------------------------------------------
                                                                              


-----------------------------------------------0---------0---------------2-0--
------------------------0--------0----------0----2-0---0---2/3-2--------------
-------------4------------2-0------2/4-2-0-----------2-----------2/4\2-0------
-4\2-4-----4------------------4-----------------------------------------------
-------2/4--------------------------------------------------------------------
---------------4/9-9\3--------------------------------------------------------
                      
                                                        

--------------------0-2-------0------0----|------0-2/3-2/3\2-0-------0-2-0----
-1/2-2-2-2--0---0-2-----2/3-3---3--3---3--|----0---------------0---0----------
--------------2---------------------------|--2-------------------2------------
------------------------------------------|-----------------------------------
------------------------------------------|-----------------------------------
------------------------------------------|-----------------------------------
                      
                                                        

-2/4--0-5/7-------------0-2/3\2-0------2\1---0-2------------------------------
------------5/7-------0-----------0-3------3-----2---0------------------------
----------------7\2-2------------------------------2---2-0---0----------------
-----------------------------------------------------------4---4\2-0---0-2-0--
---------------------------------------------------------------------2--------
------------------------------------------------------------------------------
                                                                              


------------------------------------7-9-9/12--15\14-12--------------14-12-----
----------------------------------7---------------------12/14----14-----------
--------------------------------7-----------------------------14--------------
-2/3--2/3\2--0h2p0------------7-----------------------------------------------
-------------------0------5/7-------------------------------------------------
---------------------2/7------------------------------------------------------
                        
                                                      

-9---9/12--------7----------------2p0---------------------5---5---------------
---9------10/12------7--5/7\5---------1/2----3----4----5----5-----5/7---------
------------------------------7---------------------------------------7---7---
-------------------7----------------------2----3----4-----------5-------9-----
------------------------------------------------------------------------------
------------------------------------------------------------------------------
                                                                              


------------------------------------------------------------------------------
------------------------------------------------------------------------------
-6/7--7----7------------------------------------------------------------------
-6/7--7----7------------------------------------------------------------------
------------------------------------------------------------------------------
---------7--------------------------------------------------------------------
                                                                              
                                                                              



TABLATURE SYMBOLS h Hammer On p Pull Off b Bend String r Release Bend / Slide Up \ Slide Down v Vibrato * Trill (eg 8*10) t Right Hand Tap (eg. t10) x Muted Note (or Retake) ^ Harmonic
#----------------------------------PLEASE NOTE--------------------------------#
#This file is the author's own work and represents their interpretation of the#
#song. You may only use this file for private study, scholarship, or research.#
#-----------------------------------------------------------------------------#
Author/Artist: Jerry Douglas Original Recording Title: Birth Of The Blues Album: Everything's Gonna Work Out Fine Transcribed by: Troy Allen, Jr. Email: troy3@clds.net Email: Troy@DobroPlayers.com Web Page: The Dobro Player's Tune Of The Week
Back to the Tablature Section