Make your own free website on Tripod.com

Messing Around

"Messing Around"


Messing Around


  G Tuning


                                                                   1st Measure

-|----------------------------------------------------------------------------
-|----------------------------------------------------------------------3v----
-|-0----0-----0--2--4--5--5--4--2--0-----0-----0------4--5--5--4--2--0--------
-|-0h2-----4--------0-----------------4-----2---------0-----------------------
-|------------------------------------------------3---------------------------
-|-0----------------0---------------------------------0-----------------------
                                                                              


----------------------------------------------------------------------------|-
-----3v--------3------------------------------------------------------------|-
------------0-----4--5--5--4--2--0-----0-----0----------------0-------------|-
------------------0-----------------4-----2-------------5-----------5/7--7--|-
------------------------------------------------3----------5-----5-------7--|-
--0------0--------0----------------------------------5----------------------|-
      
                                                                        

------------------------------------------------------------------------------
------------------------------------------------------------------------3v----
-----------0--2--3--4--5--5--4--2--0-----0-----0------4--5--5--4--2--0--------
--0--2--4-----------0-----------------4-----2---------0-----------------------
--------------------------------------------------3---------------------------
--------------------0---------------------------------0-----------------------
            
                                                                  

-----------------------------------------------------------0------------|-----
-----3v--------3--------------------------------------------------------|-----
------------0-----4--5--5--4--2--0-----0-----0---------5-----5------2---|-----
------------------0-----------------4-----2----------5---5-----5----0---|-----
------------------------------------------------3-----------------------|-----
--0------0--------0--------------------------------5--------------------|-----
                                                                              


--0-----4--5--7--8--9--10--10--9--7--------0--0--0-----9--10--10--9--7--12----
-----5-------------------------------8--7-----5-------------------------------
----------------------------------------------0-----7-------------------------
------------------------------------------------------------------------------
------------------------------------------------------------------------------
--------------------0----------------------------------0----------------------
             
                                                                 

-----12-----12---9--10--10--9--7--------0--0--0---------------5--4--5/7--7--|-
----------------------------------8--7-----5---------------5-------------7--|-
--0------0---------------------------------0-----7--5--------------------7--|-
-------------------------------------------------------5-----------------7--|-
-------------------------------------------------------------------------7--|-
-----------------0----------------------------------5--------------------7--|-
                                                                              




TABLATURE SYMBOLS h Hammer On p Pull Off b Bend String r Release Bend / Slide Up \ Slide Down v Vibrato * Trill (eg 8*10) t Right Hand Tap (eg. t10) x Muted Note (or Retake) ^ Harmonic
#----------------------------------PLEASE NOTE--------------------------------#
#This file is the author's own work and represents their interpretation of the#
#song. You may only use this file for private study, scholarship, or research.#
#-----------------------------------------------------------------------------#
Original Author/Artist: Troy Allen, Jr. Version Author/Artist: Troy Allen, Jr. Title: Messing Around Album: None Transcribed by: Troy Allen, Jr. Email: Troy@DobroPlayers.com Web Page: The Dobro Player's Tune Of The Week
Back to the Tablature Section