Make your own free website on Tripod.com

C-Biscuit

My Version Of "C-Biscuit"


C-Biscuit (MP3 File)


G Tuning

-5-----5--4-----4--3--0--------------------0---------------5-----5--4-----4---
-----5--------4---------0--------------0-1----3/5---5-5--------5--------4-----
--------------------------0--------0-2------------------0---------------------
---5--------4----------------0-2-3----------------5----------5--------4-------
------------------------------------------------------------------------------
------------------------------------------------------------------------------
                                                                              


-3--0--------------------0----------------------------------------------------
------0--------------0-1----3/5-----------------------------------------------
--------0--------0-2------------5-----5----Repeat From Beginning--------------
-----------0-2-3------------------5--------Then Go To Next Line---------------
------------------------------------5-----------------------------------------
------------------------------------------------------------------------------
            
                                                                  

-10----------------------10-9-10-12-9/10-10----------5v----------7-------7-9--
----10----------------10--------------------10----10---------------7---7------
-------10----------10--------------------10----10--------------------7--------
----------10----10---------------------------------------------7--------------
-------------10----------------------------------------------7----------------
---------------------------------------------------------5/7------------------
                                                                              


-10-11-12-11-10-------------------------------5-----5--4-----4--3-0-----------
----------------10/12-----------------------------5--------4--------0---------
----------------------12-------12-------------------------------------0-------
-------------------------12-------12------------5--------4---------------0-2--
----------------------------12-------12---------------------------------------
----------------------------------------12\5----------------------------------
          
                                                                    

-----------0----------------------------5-4-3v------------5-4\3-------3-------
-------0-1---3/5----------------------x-----------------x-------3/5-----3/5---
---0-2-----------5-----5------------x-----------------x-------------5---------
-3-----------------5--------------x-----------------x-------------------------
---------------------5----------x-----------------x---------------------------
------------------------------x-----------------x-----------------------------
   
                                                                           

----9/10\9--10-11--12\5-5v------------5/7-7-5-4\3-------------------5-----5---
------------------------------------x-------------3/5-------------------5-----
-5--------------------------------x-------------------5---------5-------------
--------------------------------x---------------------------5---------5-------
------------------------------x---------------------------5-------------------
----------------------------x---------------------------5-----5---------------
  
                                                                            

-4-----4-3--0--------------------------0--------------------5-----5--4-----4--
-----4--------0--------------------0-1---1-0--------------------5--------4----
----------------0----------0---0-2-----------2-0---0--------------------------
---4---------------0-2-3-----2-------------------2---2-0------5--------4------
------------------------------------------------------------------------------
------------------------------------------------------------------------------
      
                                                                        

-3--0--------------------0-------------------10----------------10\9----10-----
------0--------------0-1----3/5-----------------10----------10----------------
--------0--------0-2------------5-----5------------10----10---------10--------
-----------0-2-3------------------5-------------------10----------------------
------------------------------------5-----------------------------------------
------------------------------------------------------------------------------
                                                                              


-12/13\12--10/11\10---------5------------------7-9-10--12-11\10---------------
-----------------------10-------5----------------------------------10-12------
----------------------------------5----------7---------------------------12---
--------------------10--------5------------7--------------------10------------
-----------------------------------------7------------------------------------
-------------------------------------5/7--------------------------------------
                                                                              


-----------------------5-----5--4-----4--3--0--------------------0------------
---------------------------5--------4---------0--------------0-1---3/5---4-3--
-------12---------------------------------------0--------0-2------------------
-12-------12-------------5--------4----------------0-2-3---------------5------
----12-------12---------------------------------------------------------------
----------------12\5----------------------------------------------------------
                                                                              


-----5-----5--4-----4--3--0--------------------0-------------10v--------------
---------5--------4---------0--------------0-1----3/5-------------------------
-0----------------------------0--------0-2------------5-----------------------
-------5--------4----------------0-2-3------------------5---------------------
----------------------------------------------------------5-------------------
------------------------------------------------------------------------------


TABLATURE SYMBOLS h Hammer On p Pull Off b Bend String r Release Bend / Slide Up \ Slide Down v Vibrato * Trill (eg 8*10) t Right Hand Tap (eg. t10) x Muted Note (or Retake) ^ Harmonic
#----------------------------------PLEASE NOTE--------------------------------# #This file is the author's own work and represents their interpretation of the# #song. You may only use this file for private study, scholarship, or research.# #-----------------------------------------------------------------------------#
Original Author/Artist: Jerry Douglas Version Author/Artist: Troy Allen, Jr. Title: C-Biscuit Album: Everything's Gonna Work Out Fine Transcribed by: Troy Allen, Jr. Email: troy3@clds.net Web Page: The Dobro Player's Tune Of The Week

Back to the Tablature Section