Make your own free website on Tripod.com

A Tribute to Peador O'Donnell

A Tribute to Peador O'Donnell played by Jon"

Played in open D tuning
D-A-D-F#-A-D
This is just the basics...let your right hand improvise with the picking.


-------0-0-0--0----------------------------------0----------------------------
-----0---0-5--5p0----------------------------0---0----------------------------
-0-1-----5--------5p0-0h3----------------------5\3p0-0h1p0--------------------
---------5-5--------------0h2/4--0-2-4/5---5-----0--------20---0--0-2/4-0h2---
---------5-------------------------------5-------0-----------2/5-0------------
---------5-5-------------------------------------0-------------5--------------
  
                                                                            

--|------0-0-0--0----------------------------------0--------------------------
-0|----0---0-5--5p0----------------------------0---0--------------------------
--|0-1-----5--------5p0-0h3----------------------5\3p0-0h1p0------------------
-2|--------5-5--------------0h2/4--0-2-4/5---5-----0--------20---0--0-2/4-----
-0|--------5-------------------------------5-------0-----------2/5-0----------
--|--------5-5-------------------------------------0-------------5------------
   
                                                                           

------|------0-0-0-------5\4---------0-0-------------0------------------------
-----0|----0---0-0------5----7/9-7-5-7---4-----0-----0------------------------
------|0-1-----7\5-----5-------------7-----5-----5---0------------------------
-0h2-2|--------7\5----5------7/9-----7-------5-----5\4\2p0-0h2p0-------0---0--
-----0|--------7\5---5---------------7---------------0-----------2p0-2/5-0----
------|--------7\5--5--------7/9-----7---------------0-----------------5------
                                                                              


-------|------0-0-0-------5\4---------0-0-------------0-----------------------
------0|----0---0-0------5----7/9-7-5-7---4-----0-----0-----------------------
-------|0-1-----7\5-----5-------------7-----5-----5---0-----------------------
-2/40h2|--------7\5----5------7/9-----7-------5-----5\4\2p0-0h2p0-------0-----
------0|--------7\5---5---------------7---------------0-----------2p0-2/5-0---
-------|--------7\5--5--------7/9-----7---------------0-----------------5-----
                                                                              


---------|------0------0-------------0-0-----------0--------------------------
--------0|----0---2p02/3-3\2p0-------0---5p0-------0---------------------0----
---------|0-1----------0-------0-3/5-5-------5p0-0h3--------------------------
-0-2/40h2|-------------0-------------5-------------0-0h2/4\2p0-0-2-4-5--5-----
--------0|-------------0-------------5-------------0-------------------5------
---------|-------------0-------------5-------------0--------------------------
                                                                              


---0--------------------------------|-------0------0-------------0-0----------
---0------------------------------0-|-----0---2p02/3-3\2p0-------0---5p0------
-5\3-0h1p0--------------------------|-0-1----------0-------0-----5-------5p0--
---0------2p0---0---0h2/4-0h2---2---|--------------0---------3/5-5------------
---0----------2/5-0-----------0-----|--------------0-------------5------------
---0------------5-------------------|--------------0-------------5------------
                                                                              


---0------------------------0-------------------------------------------------
---0---------------------0--0------------------------------0------------------
-0h3----------------------5\3-0h1p0-------------------------------------------
---0-0h2/4\2p0-0-2-4-5--5---0------2p0---0---0h2/4-0h2---2--------------------
---0-------------------5----0----------2/5-0-----------0----------------------
---0------------------------0------------5------------------------------------


TABLATURE SYMBOLS h Hammer On p Pull Off b Bend String r Release Bend / Slide Up \ Slide Down v Vibrato * Trill (eg 8*10) t Right Hand Tap (eg. t10) x Muted Note (or Retake) ^ Harmonic
#----------------------------------PLEASE NOTE--------------------------------# #This file is the author's own work and represents their interpretation of the# #song. You may only use this file for private study, scholarship, or research.# #-----------------------------------------------------------------------------#
Author/Artist: Jerry Douglas Title: A Tribute to Peador O'Donnell Album: Restless on the Farm Transcribed by: Jonathan Email: dobroplayer@hotmail.com Web Page: Dobro Players Anonymous

Back to the Tablature Section