Make your own free website on Tripod.com

Reuben

A Jerry Douglas Version Of "Reuben"


Dobro break by Jerry Douglas played in G Tuning

     D                                                               
D||----------------10------10--10--|----------------10------10--10--|
B||--8/-10--8/-10------10----------|--8/-10--8/-10------10----------|
G||--------------------------------|--------------------------------|
D||--------------------------------|--------------------------------|
B||--------------------------------|--------------------------------|
G||--------------------------------|--------------------------------|


                                                          
------12--------12----10------|--7\-6---------5----------|
--12--------12------------10--|--------6/7---------5/-7--|
------------------------------|------------7-------------|
------------------------------|--------------------------|
------------------------------|--------------------------|
------------------------------|--------------------------|


                              A                     
-------5/-7\-5-------------|--5/-7------5/-7\-5----|
----------------5/-7-------|-----------------------|
--7-------------------7----|-----------------------|
---------------------------|-----------------------|
---------------------------|-----------------------|
---------------------------|-----------------------|


  D                                           
------------------------|--------------------|
--5/-7------------------|--------------------|
--------7---------------|-----7--------------|
-----------------7\5/7--|--------------------|
------------------------|--7-----------------|
------------------------|--------------------|


                                                       
---------10-----------10----|-------10----12----------|
--8/-10--------8/-10--------|--8/10-------------------|
----------------------------|-------------------------|
----------------------------|-------------------------|
----------------------------|-------------------------|
----------------------------|-------------------------|


                                                     
------12/15-------10--------|--7\-5-----------------|
--12----------10------------|--------5/-7-----------|
----------------------------|--------------7--------|
----------------------------|-----------------------|
----------------------------|-----------------------|
----------------------------|-----------------------|


                             A                         
--------------------------|--7-----10----5/-7--5/7\5--|
--5/-7--5/-7--------7-----|-----7---------------------|
-----------------7-----7--|---------------------------|
--------------7-----------|---------------------------|
--------------------------|---------------------------|
--------------------------|---------------------------|


  D                                               
--------------------------|----------------------|
--5/7---------------------|----------------------|
------7-------------------|-----7----------------|
-------------5/-7--5/7\5--|-------------------7--|
--------------------------|--7-------------------|
--------------------------|----------------7-----|


                                                      
--------------------------|--------------------------|
--7--------------------7\-|--5--5/-7--------7--------|
-----------7--------5-----|-----------7--------------|
--------7--------5--------|--------------7-----7\-5--|
-----7--------------------|--------------------------|
--------------5-----------|--------------------------|


                                                        
--------------------------|-----------------------5----|
--------------------------|--------------------5-------|
-----5\4/7-------------5--|-----7\-5--------5----------|
------------7--5----------|-----------5----------------|
--5-----------------5-----|--7-----------5-------------|
--------------------------|----------------------------|


                           A                       
----------------7----9/-|--10---------7\5---------|
----5--------7----------|----------7--------5/-7--|
-------5----------------|-------------------------|
----------5-------------|-------------------------|
------------------------|-------------------------|
------------------------|-------------------------|


  D                                                                   
----------------------|-----------------0-----|--2/---4----0---------|
-------5/-7-----------|--------------0--------|-------------------0--|
--7----5/-7----5------|--7\-------2--------5--|----------------------|
---------------5------|--7\-------------------|----------------------|
----------------------|-----------------------|----------------------|
----------------------|-----------------------|----------------------|


                                                         
--7-----2/-4--0-----------|--3\-2--0-----0h-2p-0--------|
-----0-----------0-----0--|-----------0--------------2/-|
--------------------2-----|-----------------------2-----|
--------------------------|-----------------------------|
--------------------------|-----------------------------|
--------------------------|-----------------------------|


                                                      
--0--------------0-----|-----------0-----------------|
--3--------0-----------|-----------------------------|
--------------5-----5\-|--4-----0--------------------|
-----------------------|-----4--------5/-6\-5-----5--|
-----------------------|-----------------------5-----|
-----------------------|-----------------------------|


  A                        D                    
------------------------|----------------------|
------------------------|----------------------|
------------------------|-------------------0--|
--3----3/-4--0----------|------------0---------|
------------------1p-0--|--1/---3--------------|
------------------------|----------------------|


                                                 
--------------------------|--------------7------|
--------------------------|------5/-7----7------|
-------------7---------5--|------5/-7-----------|
----0-----------7\5-------|---------------------|
-------5/-7---------5-----|---------------------|
--------------------------|---------------------|


                                                       
--10--------------10/-12--|------10----5/-6\-5--------|
--10--------------10/-12--|------10----5/-6\-5--5-----|
--------------10----------|---------------------5-----|
--------------------------|------------------------5--|
--------------------------|---------------------------|
--------------------------|---------------------------|


                                                     
--5---------------5/-7--|--5/7-------7-----------5--|
--5----5/-7-------------|------7--------------5-----|
-------5/-7-------------|---------7--------5--------|
-------------7----------|---------------5-----------|
------------------------|---------------------------|
------------------------|---------------------------|


  A                          D                    
--------------------------|----------------------|
--5/-7--5/-7--------------|----------------------|
--------------7-----------|--7----5/-7------7----|
-----------------7\-5--7--|----------------------|
--------------------------|----------------------|
--------------------------|----------------------|


                                                     
--------2p-0-----4p-0-----|--2p-0-----4p-0-----7----|
-----0--------------------|-------------------------|
--------------------------|-------------------------|
--0-----------0--------0--|--------0--------0-------|
--------------------------|-------------------------|
--------------------------|-------------------------|


                                                   
------9/-10----10------|--6\-5--------5-----------|
------9/-10------------|--------5--------5/-7-----|
-----------------------|-----------5-----------7--|
-----------------------|--------------------------|
-----------------------|--------------------------|
-----------------------|--------------------------|


                                                     
---------------------------|------------------------|
--5/-7--5/-7---------------|------------------5/-7--|
--------------7\5-------5--|----7--7----------------|
------------------5--------|------------7\-5--------|
---------------------5-----|------------------------|
---------------------------|------------------------|


  A                           D                       
---------------------------|-------------0--------0--|
---------------------------|-------------------------|
--7----5-------------------|-------------------------|
------------5/-6\-5--------|-------------------0-----|
---------------------5/-7--|-------------------------|
---------------------------|--7----5/-7-----7--------|


                     
-------------------||
-------------------||
-------------------||
--0----------------||
-------------------||
-------------------||


TABLATURE SYMBOLS h Hammer On p Pull Off b Bend String r Release Bend / Slide Up \ Slide Down v Vibrato * Trill (eg 8*10) t Right Hand Tap (eg. t10) x Muted Note (or Retake) ^ Harmonic
#----------------------------------PLEASE NOTE--------------------------------# #This file is the author's own work and represents their interpretation of the# #song. You may only use this file for private study, scholarship, or research.# #-----------------------------------------------------------------------------#
Original Author/Artist: Jerry Douglas Version Author/Artist: Jerry Douglas Title: Reuben Album: Television Recording Transcribed by: Kenny Phillips Email: home21@preferred.com Web Page: None

Back to the Tablature Section